ISO-10303-21;
HEADER;
/* Generated by software containing ST-Developer
 * from STEP Tools, Inc. (www.steptools.com) 
 */

FILE_DESCRIPTION(
/* description */ (''),
/* implementation_level */ '2;1');

FILE_NAME(
/* name */ 'SAH_50_R_N.dxf',
/* time_stamp */ '2012-11-23T16:48:58+08:00',
/* author */ (''),
/* organization */ (''),
/* preprocessor_version */ 'ST-DEVELOPER v9',
/* originating_system */ 'UGS - NX 4.0',
/* authorisation */ '');

FILE_SCHEMA (('CONFIG_CONTROL_DESIGN'));
ENDSEC;

DATA;
#10=SHAPE_REPRESENTATION_RELATIONSHIP('None',
'relationship between AdmiF1F0xn48-None and AdmiF1F0xn48-None',#94,#11);
#11=ADVANCED_BREP_SHAPE_REPRESENTATION('AdmiF1F0xn48-None',(#95),#445);
#12=CC_DESIGN_APPROVAL(#24,(#82));
#13=CC_DESIGN_APPROVAL(#25,(#84));
#14=CC_DESIGN_APPROVAL(#26,(#31));
#15=APPROVAL_PERSON_ORGANIZATION(#69,#24,#18);
#16=APPROVAL_PERSON_ORGANIZATION(#70,#25,#19);
#17=APPROVAL_PERSON_ORGANIZATION(#71,#26,#20);
#18=APPROVAL_ROLE('approver');
#19=APPROVAL_ROLE('approver');
#20=APPROVAL_ROLE('approver');
#21=APPROVAL_DATE_TIME(#39,#24);
#22=APPROVAL_DATE_TIME(#40,#25);
#23=APPROVAL_DATE_TIME(#41,#26);
#24=APPROVAL(#27,' ');
#25=APPROVAL(#28,' ');
#26=APPROVAL(#29,' ');
#27=APPROVAL_STATUS('not_yet_approved');
#28=APPROVAL_STATUS('not_yet_approved');
#29=APPROVAL_STATUS('not_yet_approved');
#30=CC_DESIGN_SECURITY_CLASSIFICATION(#31,(#84));
#31=SECURITY_CLASSIFICATION(' ',' ',#32);
#32=SECURITY_CLASSIFICATION_LEVEL('confidential');
#33=CC_DESIGN_DATE_AND_TIME_ASSIGNMENT(#37,#35,(#82));
#34=CC_DESIGN_DATE_AND_TIME_ASSIGNMENT(#38,#36,(#31));
#35=DATE_TIME_ROLE('creation_date');
#36=DATE_TIME_ROLE('classification_date');
#37=DATE_AND_TIME(#52,#42);
#38=DATE_AND_TIME(#53,#43);
#39=DATE_AND_TIME(#54,#44);
#40=DATE_AND_TIME(#55,#45);
#41=DATE_AND_TIME(#56,#46);
#42=LOCAL_TIME(0,0,0.,#47);
#43=LOCAL_TIME(0,0,0.,#48);
#44=LOCAL_TIME(0,0,0.,#49);
#45=LOCAL_TIME(0,0,0.,#50);
#46=LOCAL_TIME(0,0,0.,#51);
#47=COORDINATED_UNIVERSAL_TIME_OFFSET(0,0,.BEHIND.);
#48=COORDINATED_UNIVERSAL_TIME_OFFSET(0,0,.BEHIND.);
#49=COORDINATED_UNIVERSAL_TIME_OFFSET(0,0,.BEHIND.);
#50=COORDINATED_UNIVERSAL_TIME_OFFSET(0,0,.BEHIND.);
#51=COORDINATED_UNIVERSAL_TIME_OFFSET(0,0,.BEHIND.);
#52=CALENDAR_DATE(0,1,1);
#53=CALENDAR_DATE(0,1,1);
#54=CALENDAR_DATE(0,1,1);
#55=CALENDAR_DATE(0,1,1);
#56=CALENDAR_DATE(0,1,1);
#57=CC_DESIGN_PERSON_AND_ORGANIZATION_ASSIGNMENT(#65,#61,(#82,#84));
#58=CC_DESIGN_PERSON_AND_ORGANIZATION_ASSIGNMENT(#66,#62,(#86));
#59=CC_DESIGN_PERSON_AND_ORGANIZATION_ASSIGNMENT(#67,#63,(#84));
#60=CC_DESIGN_PERSON_AND_ORGANIZATION_ASSIGNMENT(#68,#64,(#31));
#61=PERSON_AND_ORGANIZATION_ROLE('creator');
#62=PERSON_AND_ORGANIZATION_ROLE('design_owner');
#63=PERSON_AND_ORGANIZATION_ROLE('design_supplier');
#64=PERSON_AND_ORGANIZATION_ROLE('classification_officer');
#65=PERSON_AND_ORGANIZATION(#79,#72);
#66=PERSON_AND_ORGANIZATION(#79,#73);
#67=PERSON_AND_ORGANIZATION(#79,#74);
#68=PERSON_AND_ORGANIZATION(#79,#75);
#69=PERSON_AND_ORGANIZATION(#79,#76);
#70=PERSON_AND_ORGANIZATION(#79,#77);
#71=PERSON_AND_ORGANIZATION(#79,#78);
#72=ORGANIZATION(' ',' ',' ');
#73=ORGANIZATION(' ',' ',' ');
#74=ORGANIZATION(' ',' ',' ');
#75=ORGANIZATION(' ',' ',' ');
#76=ORGANIZATION(' ',' ',' ');
#77=ORGANIZATION(' ',' ',' ');
#78=ORGANIZATION(' ',' ',' ');
#79=PERSON(' ',' ',' ',(' '),$,$);
#80=SHAPE_DEFINITION_REPRESENTATION(#81,#94);
#81=PRODUCT_DEFINITION_SHAPE('','',#82);
#82=PRODUCT_DEFINITION(' ','',#84,#83);
#83=DESIGN_CONTEXT('',#93,'design');
#84=PRODUCT_DEFINITION_FORMATION_WITH_SPECIFIED_SOURCE(' ',' ',#86,.NOT_KNOWN.);
#85=PRODUCT_RELATED_PRODUCT_CATEGORY('detail','',(#86));
#86=PRODUCT('AdmiF1F0xn48','AdmiF1F0xn48',' ',(#91));
#87=PRODUCT_CATEGORY_RELATIONSHIP(' ',' ',#89,#90);
#88=PRODUCT_CATEGORY_RELATIONSHIP('','',#90,#85);
#89=PRODUCT_CATEGORY('part',' ');
#90=PRODUCT_CATEGORY(' ','');
#91=MECHANICAL_CONTEXT(' ',#93,'mechanical');
#92=APPLICATION_PROTOCOL_DEFINITION('international standard',
'config_control_design',1994,#93);
#93=APPLICATION_CONTEXT(
'configuration controlled 3D designs of mechanical parts and assemblies
');
#94=SHAPE_REPRESENTATION('AdmiF1F0xn48-None',(#287),#445);
#95=MANIFOLD_SOLID_BREP('',#96);
#96=CLOSED_SHELL('',(#111,#112,#113,#114,#115,#116,#117,#118,#119,#120,#121,
#122,#123,#124,#125,#126,#127));
#97=TOROIDAL_SURFACE('',#308,8.99999999999999,2.);
#98=TOROIDAL_SURFACE('',#311,14.,3.);
#99=TOROIDAL_SURFACE('',#313,24.,1.);
#100=TOROIDAL_SURFACE('',#316,24.,1.);
#101=CYLINDRICAL_SURFACE('',#298,4.49999999999999);
#102=CYLINDRICAL_SURFACE('',#302,4.99999999999999);
#103=CYLINDRICAL_SURFACE('',#310,11.);
#104=CYLINDRICAL_SURFACE('',#315,25.);
#105=CYLINDRICAL_SURFACE('',#319,1.5);
#106=CONICAL_SURFACE('',#296,1.00000000000003,60.0000020182753);
#107=CONICAL_SURFACE('',#304,5.99999999999999,45.);
#108=CONICAL_SURFACE('',#320,1.5,45.);
#109=CONICAL_SURFACE('',#321,1.5,45.);
#110=VERTEX_LOOP('',#240);
#111=ADVANCED_FACE('',(#140,#132,#141),#128,.F.);
#112=ADVANCED_FACE('',(#142,#133),#129,.F.);
#113=ADVANCED_FACE('',(#143,#134),#106,.F.);
#114=ADVANCED_FACE('',(#144,#145),#101,.F.);
#115=ADVANCED_FACE('',(#146,#135),#130,.F.);
#116=ADVANCED_FACE('',(#147,#148),#102,.F.);
#117=ADVANCED_FACE('',(#149,#136),#107,.F.);
#118=ADVANCED_FACE('',(#150,#137),#131,.F.);
#119=ADVANCED_FACE('',(#151,#152),#97,.T.);
#120=ADVANCED_FACE('',(#153,#154),#103,.T.);
#121=ADVANCED_FACE('',(#155,#156),#98,.F.);
#122=ADVANCED_FACE('',(#157,#158),#99,.T.);
#123=ADVANCED_FACE('',(#159,#160),#104,.T.);
#124=ADVANCED_FACE('',(#161,#162),#100,.T.);
#125=ADVANCED_FACE('',(#163,#164),#105,.F.);
#126=ADVANCED_FACE('',(#138,#165),#108,.F.);
#127=ADVANCED_FACE('',(#139,#166),#109,.F.);
#128=PLANE('',#291);
#129=PLANE('',#294);
#130=PLANE('',#300);
#131=PLANE('',#306);
#132=FACE_OUTER_BOUND('',#168,.T.);
#133=FACE_OUTER_BOUND('',#171,.T.);
#134=FACE_OUTER_BOUND('',#172,.T.);
#135=FACE_OUTER_BOUND('',#176,.T.);
#136=FACE_OUTER_BOUND('',#180,.T.);
#137=FACE_OUTER_BOUND('',#182,.T.);
#138=FACE_OUTER_BOUND('',#197,.T.);
#139=FACE_OUTER_BOUND('',#199,.T.);
#140=FACE_BOUND('',#167,.T.);
#141=FACE_BOUND('',#169,.T.);
#142=FACE_BOUND('',#170,.T.);
#143=FACE_BOUND('',#110,.T.);
#144=FACE_BOUND('',#173,.T.);
#145=FACE_BOUND('',#174,.T.);
#146=FACE_BOUND('',#175,.T.);
#147=FACE_BOUND('',#177,.T.);
#148=FACE_BOUND('',#178,.T.);
#149=FACE_BOUND('',#179,.T.);
#150=FACE_BOUND('',#181,.T.);
#151=FACE_BOUND('',#183,.T.);
#152=FACE_BOUND('',#184,.T.);
#153=FACE_BOUND('',#185,.T.);
#154=FACE_BOUND('',#186,.T.);
#155=FACE_BOUND('',#187,.T.);
#156=FACE_BOUND('',#188,.T.);
#157=FACE_BOUND('',#189,.T.);
#158=FACE_BOUND('',#190,.T.);
#159=FACE_BOUND('',#191,.T.);
#160=FACE_BOUND('',#192,.T.);
#161=FACE_BOUND('',#193,.T.);
#162=FACE_BOUND('',#194,.T.);
#163=FACE_BOUND('',#195,.T.);
#164=FACE_BOUND('',#196,.T.);
#165=FACE_BOUND('',#198,.T.);
#166=FACE_BOUND('',#200,.T.);
#167=EDGE_LOOP('',(#201));
#168=EDGE_LOOP('',(#202));
#169=EDGE_LOOP('',(#203));
#170=EDGE_LOOP('',(#204));
#171=EDGE_LOOP('',(#205));
#172=EDGE_LOOP('',(#206));
#173=EDGE_LOOP('',(#207));
#174=EDGE_LOOP('',(#208));
#175=EDGE_LOOP('',(#209));
#176=EDGE_LOOP('',(#210));
#177=EDGE_LOOP('',(#211));
#178=EDGE_LOOP('',(#212));
#179=EDGE_LOOP('',(#213));
#180=EDGE_LOOP('',(#214));
#181=EDGE_LOOP('',(#215));
#182=EDGE_LOOP('',(#216));
#183=EDGE_LOOP('',(#217));
#184=EDGE_LOOP('',(#218));
#185=EDGE_LOOP('',(#219));
#186=EDGE_LOOP('',(#220));
#187=EDGE_LOOP('',(#221));
#188=EDGE_LOOP('',(#222));
#189=EDGE_LOOP('',(#223));
#190=EDGE_LOOP('',(#224));
#191=EDGE_LOOP('',(#225));
#192=EDGE_LOOP('',(#226));
#193=EDGE_LOOP('',(#227));
#194=EDGE_LOOP('',(#228));
#195=EDGE_LOOP('',(#229));
#196=EDGE_LOOP('',(#230));
#197=EDGE_LOOP('',(#231));
#198=EDGE_LOOP('',(#232));
#199=EDGE_LOOP('',(#233));
#200=EDGE_LOOP('',(#234));
#201=ORIENTED_EDGE('',*,*,#253,.T.);
#202=ORIENTED_EDGE('',*,*,#254,.T.);
#203=ORIENTED_EDGE('',*,*,#255,.F.);
#204=ORIENTED_EDGE('',*,*,#256,.T.);
#205=ORIENTED_EDGE('',*,*,#257,.F.);
#206=ORIENTED_EDGE('',*,*,#258,.T.);
#207=ORIENTED_EDGE('',*,*,#258,.F.);
#208=ORIENTED_EDGE('',*,*,#259,.T.);
#209=ORIENTED_EDGE('',*,*,#259,.F.);
#210=ORIENTED_EDGE('',*,*,#260,.T.);
#211=ORIENTED_EDGE('',*,*,#260,.F.);
#212=ORIENTED_EDGE('',*,*,#261,.T.);
#213=ORIENTED_EDGE('',*,*,#261,.F.);
#214=ORIENTED_EDGE('',*,*,#262,.T.);
#215=ORIENTED_EDGE('',*,*,#262,.F.);
#216=ORIENTED_EDGE('',*,*,#263,.T.);
#217=ORIENTED_EDGE('',*,*,#263,.F.);
#218=ORIENTED_EDGE('',*,*,#264,.T.);
#219=ORIENTED_EDGE('',*,*,#264,.F.);
#220=ORIENTED_EDGE('',*,*,#265,.T.);
#221=ORIENTED_EDGE('',*,*,#265,.F.);
#222=ORIENTED_EDGE('',*,*,#255,.T.);
#223=ORIENTED_EDGE('',*,*,#254,.F.);
#224=ORIENTED_EDGE('',*,*,#266,.T.);
#225=ORIENTED_EDGE('',*,*,#266,.F.);
#226=ORIENTED_EDGE('',*,*,#267,.T.);
#227=ORIENTED_EDGE('',*,*,#267,.F.);
#228=ORIENTED_EDGE('',*,*,#257,.T.);
#229=ORIENTED_EDGE('',*,*,#268,.T.);
#230=ORIENTED_EDGE('',*,*,#269,.T.);
#231=ORIENTED_EDGE('',*,*,#253,.F.);
#232=ORIENTED_EDGE('',*,*,#269,.F.);
#233=ORIENTED_EDGE('',*,*,#256,.F.);
#234=ORIENTED_EDGE('',*,*,#268,.F.);
#235=VERTEX_POINT('',#394);
#236=VERTEX_POINT('',#396);
#237=VERTEX_POINT('',#398);
#238=VERTEX_POINT('',#401);
#239=VERTEX_POINT('',#403);
#240=VERTEX_POINT('',#405);
#241=VERTEX_POINT('',#407);
#242=VERTEX_POINT('',#410);
#243=VERTEX_POINT('',#413);
#244=VERTEX_POINT('',#416);
#245=VERTEX_POINT('',#419);
#246=VERTEX_POINT('',#422);
#247=VERTEX_POINT('',#425);
#248=VERTEX_POINT('',#428);
#249=VERTEX_POINT('',#432);
#250=VERTEX_POINT('',#435);
#251=VERTEX_POINT('',#439);
#252=VERTEX_POINT('',#441);
#253=EDGE_CURVE('',#235,#235,#270,.T.);
#254=EDGE_CURVE('',#236,#236,#271,.T.);
#255=EDGE_CURVE('',#237,#237,#272,.T.);
#256=EDGE_CURVE('',#238,#238,#273,.T.);
#257=EDGE_CURVE('',#239,#239,#274,.T.);
#258=EDGE_CURVE('',#241,#241,#275,.T.);
#259=EDGE_CURVE('',#242,#242,#276,.T.);
#260=EDGE_CURVE('',#243,#243,#277,.T.);
#261=EDGE_CURVE('',#244,#244,#278,.T.);
#262=EDGE_CURVE('',#245,#245,#279,.T.);
#263=EDGE_CURVE('',#246,#246,#280,.T.);
#264=EDGE_CURVE('',#247,#247,#281,.T.);
#265=EDGE_CURVE('',#248,#248,#282,.T.);
#266=EDGE_CURVE('',#249,#249,#283,.T.);
#267=EDGE_CURVE('',#250,#250,#284,.T.);
#268=EDGE_CURVE('',#251,#251,#285,.T.);
#269=EDGE_CURVE('',#252,#252,#286,.T.);
#270=CIRCLE('',#288,2.);
#271=CIRCLE('',#289,24.);
#272=CIRCLE('',#290,14.);
#273=CIRCLE('',#292,2.);
#274=CIRCLE('',#293,24.);
#275=CIRCLE('',#295,4.49999999999999);
#276=CIRCLE('',#297,4.49999999999999);
#277=CIRCLE('',#299,4.99999999999999);
#278=CIRCLE('',#301,4.99999999999999);
#279=CIRCLE('',#303,5.99999999999999);
#280=CIRCLE('',#305,8.99999999999999);
#281=CIRCLE('',#307,11.);
#282=CIRCLE('',#309,11.);
#283=CIRCLE('',#312,25.);
#284=CIRCLE('',#314,25.);
#285=CIRCLE('',#317,1.5);
#286=CIRCLE('',#318,1.5);
#287=AXIS2_PLACEMENT_3D('',#392,#322,#323);
#288=AXIS2_PLACEMENT_3D('',#393,#324,#325);
#289=AXIS2_PLACEMENT_3D('',#395,#326,#327);
#290=AXIS2_PLACEMENT_3D('',#397,#328,#329);
#291=AXIS2_PLACEMENT_3D('',#399,#330,#331);
#292=AXIS2_PLACEMENT_3D('',#400,#332,#333);
#293=AXIS2_PLACEMENT_3D('',#402,#334,#335);
#294=AXIS2_PLACEMENT_3D('',#404,#336,#337);
#295=AXIS2_PLACEMENT_3D('',#406,#338,#339);
#296=AXIS2_PLACEMENT_3D('',#408,#340,#341);
#297=AXIS2_PLACEMENT_3D('',#409,#342,#343);
#298=AXIS2_PLACEMENT_3D('',#411,#344,#345);
#299=AXIS2_PLACEMENT_3D('',#412,#346,#347);
#300=AXIS2_PLACEMENT_3D('',#414,#348,#349);
#301=AXIS2_PLACEMENT_3D('',#415,#350,#351);
#302=AXIS2_PLACEMENT_3D('',#417,#352,#353);
#303=AXIS2_PLACEMENT_3D('',#418,#354,#355);
#304=AXIS2_PLACEMENT_3D('',#420,#356,#357);
#305=AXIS2_PLACEMENT_3D('',#421,#358,#359);
#306=AXIS2_PLACEMENT_3D('',#423,#360,#361);
#307=AXIS2_PLACEMENT_3D('',#424,#362,#363);
#308=AXIS2_PLACEMENT_3D('',#426,#364,#365);
#309=AXIS2_PLACEMENT_3D('',#427,#366,#367);
#310=AXIS2_PLACEMENT_3D('',#429,#368,#369);
#311=AXIS2_PLACEMENT_3D('',#430,#370,#371);
#312=AXIS2_PLACEMENT_3D('',#431,#372,#373);
#313=AXIS2_PLACEMENT_3D('',#433,#374,#375);
#314=AXIS2_PLACEMENT_3D('',#434,#376,#377);
#315=AXIS2_PLACEMENT_3D('',#436,#378,#379);
#316=AXIS2_PLACEMENT_3D('',#437,#380,#381);
#317=AXIS2_PLACEMENT_3D('',#438,#382,#383);
#318=AXIS2_PLACEMENT_3D('',#440,#384,#385);
#319=AXIS2_PLACEMENT_3D('',#442,#386,#387);
#320=AXIS2_PLACEMENT_3D('',#443,#388,#389);
#321=AXIS2_PLACEMENT_3D('',#444,#390,#391);
#322=DIRECTION('',(0.,0.,1.));
#323=DIRECTION('',(1.,0.,0.));
#324=DIRECTION('',(-1.,0.,0.));
#325=DIRECTION('',(0.,0.,1.));
#326=DIRECTION('',(1.,0.,0.));
#327=DIRECTION('',(0.,0.,-1.));
#328=DIRECTION('',(1.,0.,0.));
#329=DIRECTION('',(0.,0.,-1.));
#330=DIRECTION('',(-1.,0.,0.));
#331=DIRECTION('',(0.,0.,1.));
#332=DIRECTION('',(1.,0.,0.));
#333=DIRECTION('',(0.,0.,-1.));
#334=DIRECTION('',(1.,0.,0.));
#335=DIRECTION('',(0.,0.,-1.));
#336=DIRECTION('',(1.,0.,0.));
#337=DIRECTION('',(0.,0.,-1.));
#338=DIRECTION('',(1.,0.,0.));
#339=DIRECTION('',(0.,0.,-1.));
#340=DIRECTION('',(1.,0.,0.));
#341=DIRECTION('',(0.,0.,-1.));
#342=DIRECTION('',(1.,0.,0.));
#343=DIRECTION('',(0.,0.,-1.));
#344=DIRECTION('',(1.,0.,0.));
#345=DIRECTION('',(0.,0.,-1.));
#346=DIRECTION('',(1.,0.,0.));
#347=DIRECTION('',(0.,0.,-1.));
#348=DIRECTION('',(-1.,0.,0.));
#349=DIRECTION('',(0.,0.,1.));
#350=DIRECTION('',(1.,0.,0.));
#351=DIRECTION('',(0.,0.,-1.));
#352=DIRECTION('',(1.,0.,0.));
#353=DIRECTION('',(0.,0.,-1.));
#354=DIRECTION('',(1.,0.,0.));
#355=DIRECTION('',(0.,0.,-1.));
#356=DIRECTION('',(1.,0.,0.));
#357=DIRECTION('',(-5.51800708064193E-017,0.,-1.));
#358=DIRECTION('',(1.,0.,0.));
#359=DIRECTION('',(0.,0.,-1.));
#360=DIRECTION('',(-1.,0.,0.));
#361=DIRECTION('',(0.,0.,1.));
#362=DIRECTION('',(1.,0.,0.));
#363=DIRECTION('',(0.,0.,-1.));
#364=DIRECTION('',(1.,0.,0.));
#365=DIRECTION('',(0.,0.,-1.));
#366=DIRECTION('',(1.,0.,0.));
#367=DIRECTION('',(0.,0.,-1.));
#368=DIRECTION('',(1.,0.,0.));
#369=DIRECTION('',(0.,0.,-1.));
#370=DIRECTION('',(1.,0.,0.));
#371=DIRECTION('',(0.,0.,-1.));
#372=DIRECTION('',(1.,0.,0.));
#373=DIRECTION('',(0.,0.,-1.));
#374=DIRECTION('',(1.,0.,0.));
#375=DIRECTION('',(0.,0.,-1.));
#376=DIRECTION('',(1.,0.,0.));
#377=DIRECTION('',(0.,0.,-1.));
#378=DIRECTION('',(1.,0.,0.));
#379=DIRECTION('',(0.,0.,-1.));
#380=DIRECTION('',(1.,0.,0.));
#381=DIRECTION('',(0.,0.,-1.));
#382=DIRECTION('',(-1.,0.,0.));
#383=DIRECTION('',(0.,0.,-1.));
#384=DIRECTION('',(1.,0.,0.));
#385=DIRECTION('',(0.,0.,1.));
#386=DIRECTION('',(1.,0.,0.));
#387=DIRECTION('',(0.,0.,-1.));
#388=DIRECTION('',(1.,0.,0.));
#389=DIRECTION('',(8.31420138261476E-017,0.,-1.));
#390=DIRECTION('',(-1.,0.,0.));
#391=DIRECTION('',(-2.77140046087159E-017,0.,1.));
#392=CARTESIAN_POINT('',(0.,0.,0.));
#393=CARTESIAN_POINT('',(165.,53.,0.));
#394=CARTESIAN_POINT('',(165.,53.,2.));
#395=CARTESIAN_POINT('',(165.,70.,0.));
#396=CARTESIAN_POINT('',(165.,70.,-24.));
#397=CARTESIAN_POINT('',(165.,70.,0.));
#398=CARTESIAN_POINT('',(165.,70.,-14.));
#399=CARTESIAN_POINT('',(165.,94.,0.));
#400=CARTESIAN_POINT('',(152.,53.,0.));
#401=CARTESIAN_POINT('',(152.,53.,-2.));
#402=CARTESIAN_POINT('',(152.,70.,0.));
#403=CARTESIAN_POINT('',(152.,70.,-24.));
#404=CARTESIAN_POINT('',(152.,70.,0.));
#405=CARTESIAN_POINT('',(156.401924,70.,0.));
#406=CARTESIAN_POINT('',(159.,70.,0.));
#407=CARTESIAN_POINT('',(159.,70.,-4.49999999999999));
#408=CARTESIAN_POINT('',(156.979274222222,70.,0.));
#409=CARTESIAN_POINT('',(162.,70.,0.));
#410=CARTESIAN_POINT('',(162.,70.,-4.49999999999999));
#411=CARTESIAN_POINT('',(185.,70.,0.));
#412=CARTESIAN_POINT('',(162.,70.,0.));
#413=CARTESIAN_POINT('',(162.,70.,-4.99999999999999));
#414=CARTESIAN_POINT('',(162.,75.,0.));
#415=CARTESIAN_POINT('',(179.,70.,0.));
#416=CARTESIAN_POINT('',(179.,70.,-4.99999999999999));
#417=CARTESIAN_POINT('',(185.,70.,0.));
#418=CARTESIAN_POINT('',(180.,70.,0.));
#419=CARTESIAN_POINT('',(180.,70.,-5.99999999999999));
#420=CARTESIAN_POINT('',(180.,70.,0.));
#421=CARTESIAN_POINT('',(180.,70.,0.));
#422=CARTESIAN_POINT('',(180.,70.,-8.99999999999999));
#423=CARTESIAN_POINT('',(180.,79.,0.));
#424=CARTESIAN_POINT('',(178.,70.,0.));
#425=CARTESIAN_POINT('',(178.,70.,-11.));
#426=CARTESIAN_POINT('',(178.,70.,0.));
#427=CARTESIAN_POINT('',(168.,70.,0.));
#428=CARTESIAN_POINT('',(168.,70.,-11.));
#429=CARTESIAN_POINT('',(185.,70.,0.));
#430=CARTESIAN_POINT('',(168.,70.,0.));
#431=CARTESIAN_POINT('',(164.,70.,0.));
#432=CARTESIAN_POINT('',(164.,70.,-25.));
#433=CARTESIAN_POINT('',(164.,70.,0.));
#434=CARTESIAN_POINT('',(153.,70.,0.));
#435=CARTESIAN_POINT('',(153.,70.,-25.));
#436=CARTESIAN_POINT('',(185.,70.,0.));
#437=CARTESIAN_POINT('',(153.,70.,0.));
#438=CARTESIAN_POINT('',(152.5,53.,0.));
#439=CARTESIAN_POINT('',(152.5,53.,-1.5));
#440=CARTESIAN_POINT('',(164.5,53.,0.));
#441=CARTESIAN_POINT('',(164.5,53.,1.5));
#442=CARTESIAN_POINT('',(25.,53.,0.));
#443=CARTESIAN_POINT('',(164.5,53.,0.));
#444=CARTESIAN_POINT('',(152.5,53.,0.));
#445=(
GEOMETRIC_REPRESENTATION_CONTEXT(3)
GLOBAL_UNCERTAINTY_ASSIGNED_CONTEXT((#446))
GLOBAL_UNIT_ASSIGNED_CONTEXT((#452,#448,#447))
REPRESENTATION_CONTEXT('SAH_50_R_N','TOP_LEVEL_ASSEMBLY_PART')
);
#446=UNCERTAINTY_MEASURE_WITH_UNIT(LENGTH_MEASURE(2.E-005),#452,
'DISTANCE_ACCURACY_VALUE','Maximum Tolerance applied to model');
#447=(
NAMED_UNIT(*)
SI_UNIT($,.STERADIAN.)
SOLID_ANGLE_UNIT()
);
#448=(
CONVERSION_BASED_UNIT('DEGREE',#450)
NAMED_UNIT(#449)
PLANE_ANGLE_UNIT()
);
#449=DIMENSIONAL_EXPONENTS(0.,0.,0.,0.,0.,0.,0.);
#450=PLANE_ANGLE_MEASURE_WITH_UNIT(PLANE_ANGLE_MEASURE(0.0174532925),#451);
#451=(
NAMED_UNIT(*)
PLANE_ANGLE_UNIT()
SI_UNIT($,.RADIAN.)
);
#452=(
LENGTH_UNIT()
NAMED_UNIT(*)
SI_UNIT(.MILLI.,.METRE.)
);
ENDSEC;
END-ISO-10303-21;
